ISO-10303-21;
HEADER;
/* Generated by software containing ST-Developer
 * from STEP Tools, Inc. (www.steptools.com) 
 */
/* OPTION: using custom renumber hook */

FILE_DESCRIPTION(
/* description */ ('STEP AP242',
'CAx-IF Rec.Pracs.---Representation and Presentation of Product Manufa
cturing Information (PMI)---4.0---2014-10-13',
'CAx-IF Rec.Pracs.---3D Tessellated Geometry---0.4---2014-09-14','2;1'),

/* implementation_level */ '2;1');

FILE_NAME(
/* name */ '681f7a9c88f8237c677e8742',
/* time_stamp */ '2025-05-10T16:11:09Z',
/* author */ (''),
/* organization */ (''),
/* preprocessor_version */ 'ST-DEVELOPER v20',
/* originating_system */ 'ONSHAPE BY PTC INC, 1.197',
/* authorisation */ '  ');

FILE_SCHEMA (('AP242_MANAGED_MODEL_BASED_3D_ENGINEERING_MIM_LF { 1 0 10303 442 1 1 4 }'));
ENDSEC;

DATA;
#10=SHAPE_REPRESENTATION_RELATIONSHIP('','',#215,#11);
#11=ADVANCED_BREP_SHAPE_REPRESENTATION('',(#213),#347);
#12=CYLINDRICAL_SURFACE('',#229,0.0015);
#13=CYLINDRICAL_SURFACE('',#230,0.008);
#14=CYLINDRICAL_SURFACE('',#231,0.0015);
#15=CYLINDRICAL_SURFACE('',#232,0.0015);
#16=CYLINDRICAL_SURFACE('',#234,0.0015);
#17=LINE('',#298,#29);
#18=LINE('',#301,#30);
#19=LINE('',#303,#31);
#20=LINE('',#305,#32);
#21=LINE('',#321,#33);
#22=LINE('',#324,#34);
#23=LINE('',#326,#35);
#24=LINE('',#328,#36);
#25=LINE('',#338,#37);
#26=LINE('',#339,#38);
#27=LINE('',#342,#39);
#28=LINE('',#344,#40);
#29=VECTOR('',#244,1.);
#30=VECTOR('',#245,1.);
#31=VECTOR('',#246,1.);
#32=VECTOR('',#247,1.);
#33=VECTOR('',#264,1.);
#34=VECTOR('',#265,1.);
#35=VECTOR('',#266,1.);
#36=VECTOR('',#267,1.);
#37=VECTOR('',#282,1.);
#38=VECTOR('',#283,1.);
#39=VECTOR('',#288,1.);
#40=VECTOR('',#291,1.);
#41=ORIENTED_EDGE('',*,*,#85,.T.);
#42=ORIENTED_EDGE('',*,*,#86,.T.);
#43=ORIENTED_EDGE('',*,*,#87,.F.);
#44=ORIENTED_EDGE('',*,*,#88,.F.);
#45=ORIENTED_EDGE('',*,*,#89,.T.);
#46=ORIENTED_EDGE('',*,*,#90,.F.);
#47=ORIENTED_EDGE('',*,*,#91,.T.);
#48=ORIENTED_EDGE('',*,*,#92,.T.);
#49=ORIENTED_EDGE('',*,*,#93,.F.);
#50=ORIENTED_EDGE('',*,*,#94,.T.);
#51=ORIENTED_EDGE('',*,*,#95,.F.);
#52=ORIENTED_EDGE('',*,*,#96,.F.);
#53=ORIENTED_EDGE('',*,*,#97,.T.);
#54=ORIENTED_EDGE('',*,*,#98,.T.);
#55=ORIENTED_EDGE('',*,*,#99,.F.);
#56=ORIENTED_EDGE('',*,*,#100,.F.);
#57=ORIENTED_EDGE('',*,*,#101,.T.);
#58=ORIENTED_EDGE('',*,*,#102,.T.);
#59=ORIENTED_EDGE('',*,*,#92,.F.);
#60=ORIENTED_EDGE('',*,*,#102,.F.);
#61=ORIENTED_EDGE('',*,*,#91,.F.);
#62=ORIENTED_EDGE('',*,*,#94,.F.);
#63=ORIENTED_EDGE('',*,*,#90,.T.);
#64=ORIENTED_EDGE('',*,*,#95,.T.);
#65=ORIENTED_EDGE('',*,*,#93,.T.);
#66=ORIENTED_EDGE('',*,*,#96,.T.);
#67=ORIENTED_EDGE('',*,*,#89,.F.);
#68=ORIENTED_EDGE('',*,*,#103,.T.);
#69=ORIENTED_EDGE('',*,*,#98,.F.);
#70=ORIENTED_EDGE('',*,*,#104,.F.);
#71=ORIENTED_EDGE('',*,*,#85,.F.);
#72=ORIENTED_EDGE('',*,*,#101,.F.);
#73=ORIENTED_EDGE('',*,*,#103,.F.);
#74=ORIENTED_EDGE('',*,*,#88,.T.);
#75=ORIENTED_EDGE('',*,*,#105,.T.);
#76=ORIENTED_EDGE('',*,*,#99,.T.);
#77=ORIENTED_EDGE('',*,*,#105,.F.);
#78=ORIENTED_EDGE('',*,*,#87,.T.);
#79=ORIENTED_EDGE('',*,*,#106,.T.);
#80=ORIENTED_EDGE('',*,*,#100,.T.);
#81=ORIENTED_EDGE('',*,*,#86,.F.);
#82=ORIENTED_EDGE('',*,*,#104,.T.);
#83=ORIENTED_EDGE('',*,*,#97,.F.);
#84=ORIENTED_EDGE('',*,*,#106,.F.);
#85=EDGE_CURVE('',#107,#107,#125,.T.);
#86=EDGE_CURVE('',#108,#109,#17,.T.);
#87=EDGE_CURVE('',#110,#109,#18,.T.);
#88=EDGE_CURVE('',#111,#110,#19,.T.);
#89=EDGE_CURVE('',#111,#108,#20,.T.);
#90=EDGE_CURVE('',#112,#112,#126,.F.);
#91=EDGE_CURVE('',#113,#113,#127,.T.);
#92=EDGE_CURVE('',#114,#114,#128,.T.);
#93=EDGE_CURVE('',#115,#115,#129,.F.);
#94=EDGE_CURVE('',#116,#116,#130,.T.);
#95=EDGE_CURVE('',#117,#117,#131,.T.);
#96=EDGE_CURVE('',#118,#118,#132,.T.);
#97=EDGE_CURVE('',#119,#120,#21,.T.);
#98=EDGE_CURVE('',#120,#121,#22,.T.);
#99=EDGE_CURVE('',#122,#121,#23,.T.);
#100=EDGE_CURVE('',#119,#122,#24,.T.);
#101=EDGE_CURVE('',#123,#123,#133,.T.);
#102=EDGE_CURVE('',#124,#124,#134,.T.);
#103=EDGE_CURVE('',#111,#121,#25,.T.);
#104=EDGE_CURVE('',#108,#120,#26,.T.);
#105=EDGE_CURVE('',#110,#122,#27,.T.);
#106=EDGE_CURVE('',#109,#119,#28,.T.);
#107=VERTEX_POINT('',#297);
#108=VERTEX_POINT('',#299);
#109=VERTEX_POINT('',#300);
#110=VERTEX_POINT('',#302);
#111=VERTEX_POINT('',#304);
#112=VERTEX_POINT('',#307);
#113=VERTEX_POINT('',#309);
#114=VERTEX_POINT('',#311);
#115=VERTEX_POINT('',#313);
#116=VERTEX_POINT('',#316);
#117=VERTEX_POINT('',#318);
#118=VERTEX_POINT('',#320);
#119=VERTEX_POINT('',#322);
#120=VERTEX_POINT('',#323);
#121=VERTEX_POINT('',#325);
#122=VERTEX_POINT('',#327);
#123=VERTEX_POINT('',#330);
#124=VERTEX_POINT('',#332);
#125=CIRCLE('',#218,0.0015);
#126=CIRCLE('',#219,0.0015);
#127=CIRCLE('',#220,0.008);
#128=CIRCLE('',#221,0.0015);
#129=CIRCLE('',#222,0.0015);
#130=CIRCLE('',#224,0.008);
#131=CIRCLE('',#225,0.0015);
#132=CIRCLE('',#226,0.0015);
#133=CIRCLE('',#227,0.0015);
#134=CIRCLE('',#228,0.0015);
#135=EDGE_LOOP('',(#41));
#136=EDGE_LOOP('',(#42,#43,#44,#45));
#137=EDGE_LOOP('',(#46));
#138=EDGE_LOOP('',(#47));
#139=EDGE_LOOP('',(#48));
#140=EDGE_LOOP('',(#49));
#141=EDGE_LOOP('',(#50));
#142=EDGE_LOOP('',(#51));
#143=EDGE_LOOP('',(#52));
#144=EDGE_LOOP('',(#53,#54,#55,#56));
#145=EDGE_LOOP('',(#57));
#146=EDGE_LOOP('',(#58));
#147=EDGE_LOOP('',(#59));
#148=EDGE_LOOP('',(#60));
#149=EDGE_LOOP('',(#61));
#150=EDGE_LOOP('',(#62));
#151=EDGE_LOOP('',(#63));
#152=EDGE_LOOP('',(#64));
#153=EDGE_LOOP('',(#65));
#154=EDGE_LOOP('',(#66));
#155=EDGE_LOOP('',(#67,#68,#69,#70));
#156=EDGE_LOOP('',(#71));
#157=EDGE_LOOP('',(#72));
#158=EDGE_LOOP('',(#73,#74,#75,#76));
#159=EDGE_LOOP('',(#77,#78,#79,#80));
#160=EDGE_LOOP('',(#81,#82,#83,#84));
#161=FACE_BOUND('',#135,.T.);
#162=FACE_BOUND('',#136,.T.);
#163=FACE_BOUND('',#137,.T.);
#164=FACE_BOUND('',#138,.T.);
#165=FACE_BOUND('',#139,.T.);
#166=FACE_BOUND('',#140,.T.);
#167=FACE_BOUND('',#141,.T.);
#168=FACE_BOUND('',#142,.T.);
#169=FACE_BOUND('',#143,.T.);
#170=FACE_BOUND('',#144,.T.);
#171=FACE_BOUND('',#145,.T.);
#172=FACE_BOUND('',#146,.T.);
#173=FACE_BOUND('',#147,.T.);
#174=FACE_BOUND('',#148,.T.);
#175=FACE_BOUND('',#149,.T.);
#176=FACE_BOUND('',#150,.T.);
#177=FACE_BOUND('',#151,.T.);
#178=FACE_BOUND('',#152,.T.);
#179=FACE_BOUND('',#153,.T.);
#180=FACE_BOUND('',#154,.T.);
#181=FACE_BOUND('',#155,.T.);
#182=FACE_BOUND('',#156,.T.);
#183=FACE_BOUND('',#157,.T.);
#184=FACE_BOUND('',#158,.T.);
#185=FACE_BOUND('',#159,.T.);
#186=FACE_BOUND('',#160,.T.);
#187=PLANE('',#217);
#188=PLANE('',#223);
#189=PLANE('',#233);
#190=PLANE('',#235);
#191=PLANE('',#236);
#192=PLANE('',#237);
#193=ADVANCED_FACE('',(#161,#162,#163,#164,#165,#166),#187,.F.);
#194=ADVANCED_FACE('',(#167,#168,#169,#170,#171,#172),#188,.F.);
#195=ADVANCED_FACE('',(#173,#174),#12,.F.);
#196=ADVANCED_FACE('',(#175,#176),#13,.F.);
#197=ADVANCED_FACE('',(#177,#178),#14,.F.);
#198=ADVANCED_FACE('',(#179,#180),#15,.F.);
#199=ADVANCED_FACE('',(#181),#189,.T.);
#200=ADVANCED_FACE('',(#182,#183),#16,.F.);
#201=ADVANCED_FACE('',(#184),#190,.F.);
#202=ADVANCED_FACE('',(#185),#191,.F.);
#203=ADVANCED_FACE('',(#186),#192,.T.);
#204=CLOSED_SHELL('',(#193,#194,#195,#196,#197,#198,#199,#200,#201,#202,
#203));
#205=STYLED_ITEM('',(#206),#213);
#206=PRESENTATION_STYLE_ASSIGNMENT((#207));
#207=SURFACE_STYLE_USAGE(.BOTH.,#208);
#208=SURFACE_SIDE_STYLE('',(#209));
#209=SURFACE_STYLE_FILL_AREA(#210);
#210=FILL_AREA_STYLE('',(#211));
#211=FILL_AREA_STYLE_COLOUR('',#212);
#212=COLOUR_RGB('',0.917647058823529,0.917647058823529,0.917647058823529);
#213=MANIFOLD_SOLID_BREP('down cover',#204);
#214=SHAPE_DEFINITION_REPRESENTATION(#352,#215);
#215=SHAPE_REPRESENTATION('down cover',(#216),#347);
#216=AXIS2_PLACEMENT_3D('',#294,#238,#239);
#217=AXIS2_PLACEMENT_3D('',#295,#240,#241);
#218=AXIS2_PLACEMENT_3D('',#296,#242,#243);
#219=AXIS2_PLACEMENT_3D('',#306,#248,#249);
#220=AXIS2_PLACEMENT_3D('',#308,#250,#251);
#221=AXIS2_PLACEMENT_3D('',#310,#252,#253);
#222=AXIS2_PLACEMENT_3D('',#312,#254,#255);
#223=AXIS2_PLACEMENT_3D('',#314,#256,#257);
#224=AXIS2_PLACEMENT_3D('',#315,#258,#259);
#225=AXIS2_PLACEMENT_3D('',#317,#260,#261);
#226=AXIS2_PLACEMENT_3D('',#319,#262,#263);
#227=AXIS2_PLACEMENT_3D('',#329,#268,#269);
#228=AXIS2_PLACEMENT_3D('',#331,#270,#271);
#229=AXIS2_PLACEMENT_3D('',#333,#272,#273);
#230=AXIS2_PLACEMENT_3D('',#334,#274,#275);
#231=AXIS2_PLACEMENT_3D('',#335,#276,#277);
#232=AXIS2_PLACEMENT_3D('',#336,#278,#279);
#233=AXIS2_PLACEMENT_3D('',#337,#280,#281);
#234=AXIS2_PLACEMENT_3D('',#340,#284,#285);
#235=AXIS2_PLACEMENT_3D('',#341,#286,#287);
#236=AXIS2_PLACEMENT_3D('',#343,#289,#290);
#237=AXIS2_PLACEMENT_3D('',#345,#292,#293);
#238=DIRECTION('',(0.,0.,1.));
#239=DIRECTION('',(1.,0.,0.));
#240=DIRECTION('',(0.,0.,1.));
#241=DIRECTION('',(1.,0.,0.));
#242=DIRECTION('',(0.,0.,1.));
#243=DIRECTION('',(1.,0.,0.));
#244=DIRECTION('',(2.31296463463574E-16,1.,0.));
#245=DIRECTION('',(-1.,0.,0.));
#246=DIRECTION('',(2.31296463463574E-16,1.,0.));
#247=DIRECTION('',(-1.,0.,0.));
#248=DIRECTION('',(0.,0.,1.));
#249=DIRECTION('',(1.,0.,0.));
#250=DIRECTION('',(0.,0.,1.));
#251=DIRECTION('',(1.,0.,0.));
#252=DIRECTION('',(0.,0.,1.));
#253=DIRECTION('',(1.,0.,0.));
#254=DIRECTION('',(0.,0.,1.));
#255=DIRECTION('',(1.,0.,0.));
#256=DIRECTION('',(0.,0.,-1.));
#257=DIRECTION('',(1.,0.,0.));
#258=DIRECTION('',(0.,0.,-1.));
#259=DIRECTION('',(-1.,0.,0.));
#260=DIRECTION('',(0.,0.,1.));
#261=DIRECTION('',(-1.,0.,0.));
#262=DIRECTION('',(0.,0.,1.));
#263=DIRECTION('',(-1.,0.,0.));
#264=DIRECTION('',(-2.31296463463574E-16,-1.,0.));
#265=DIRECTION('',(1.,0.,0.));
#266=DIRECTION('',(-2.31296463463574E-16,-1.,0.));
#267=DIRECTION('',(1.,0.,0.));
#268=DIRECTION('',(0.,0.,-1.));
#269=DIRECTION('',(-1.,0.,0.));
#270=DIRECTION('',(0.,0.,-1.));
#271=DIRECTION('',(-1.,0.,0.));
#272=DIRECTION('',(0.,0.,1.));
#273=DIRECTION('',(1.,0.,0.));
#274=DIRECTION('',(0.,0.,1.));
#275=DIRECTION('',(1.,0.,0.));
#276=DIRECTION('',(0.,0.,1.));
#277=DIRECTION('',(1.,0.,0.));
#278=DIRECTION('',(0.,0.,1.));
#279=DIRECTION('',(1.,0.,0.));
#280=DIRECTION('',(0.,-1.,0.));
#281=DIRECTION('',(0.,0.,-1.));
#282=DIRECTION('',(0.,0.,1.));
#283=DIRECTION('',(0.,0.,1.));
#284=DIRECTION('',(0.,0.,1.));
#285=DIRECTION('',(1.,0.,0.));
#286=DIRECTION('',(-1.,2.31296463463574E-16,0.));
#287=DIRECTION('',(-2.31296463463574E-16,-1.,0.));
#288=DIRECTION('',(0.,0.,1.));
#289=DIRECTION('',(0.,-1.,0.));
#290=DIRECTION('',(0.,0.,-1.));
#291=DIRECTION('',(0.,0.,1.));
#292=DIRECTION('',(-1.,2.31296463463574E-16,0.));
#293=DIRECTION('',(-2.31296463463574E-16,-1.,0.));
#294=CARTESIAN_POINT('',(0.,0.,0.));
#295=CARTESIAN_POINT('',(-2.77555756156289E-17,-0.065,0.498));
#296=CARTESIAN_POINT('',(-0.012,-0.0444,0.498));
#297=CARTESIAN_POINT('',(-0.0105,-0.0444,0.498));
#298=CARTESIAN_POINT('',(-0.015,-0.0324,0.498));
#299=CARTESIAN_POINT('',(-0.015,-0.0474,0.498));
#300=CARTESIAN_POINT('',(-0.015,-0.0174,0.498));
#301=CARTESIAN_POINT('',(-2.60208521396521E-17,-0.0174,0.498));
#302=CARTESIAN_POINT('',(0.015,-0.0174,0.498));
#303=CARTESIAN_POINT('',(0.015,-0.0324,0.498));
#304=CARTESIAN_POINT('',(0.015,-0.0474,0.498));
#305=CARTESIAN_POINT('',(-3.12250225675825E-17,-0.0474,0.498));
#306=CARTESIAN_POINT('',(-0.012,-0.0204,0.498));
#307=CARTESIAN_POINT('',(-0.0105,-0.0204,0.498));
#308=CARTESIAN_POINT('',(-2.77555756156289E-17,-0.0324,0.498));
#309=CARTESIAN_POINT('',(0.00799999999999997,-0.0324,0.498));
#310=CARTESIAN_POINT('',(0.012,-0.0204,0.498));
#311=CARTESIAN_POINT('',(0.0135,-0.0204,0.498));
#312=CARTESIAN_POINT('',(0.012,-0.0444,0.498));
#313=CARTESIAN_POINT('',(0.0135,-0.0444,0.498));
#314=CARTESIAN_POINT('',(-2.77555756156289E-17,-0.0324,0.5));
#315=CARTESIAN_POINT('',(-2.77555756156289E-17,-0.0324,0.5));
#316=CARTESIAN_POINT('',(-0.00800000000000003,-0.0324,0.5));
#317=CARTESIAN_POINT('',(-0.012,-0.0204,0.5));
#318=CARTESIAN_POINT('',(-0.0135,-0.0204,0.5));
#319=CARTESIAN_POINT('',(0.012,-0.0444,0.5));
#320=CARTESIAN_POINT('',(0.0105,-0.0444,0.5));
#321=CARTESIAN_POINT('',(-0.015,-0.0324,0.5));
#322=CARTESIAN_POINT('',(-0.015,-0.0174,0.5));
#323=CARTESIAN_POINT('',(-0.015,-0.0474,0.5));
#324=CARTESIAN_POINT('',(-3.12250225675825E-17,-0.0474,0.5));
#325=CARTESIAN_POINT('',(0.015,-0.0474,0.5));
#326=CARTESIAN_POINT('',(0.015,-0.0324,0.5));
#327=CARTESIAN_POINT('',(0.015,-0.0174,0.5));
#328=CARTESIAN_POINT('',(-2.60208521396521E-17,-0.0174,0.5));
#329=CARTESIAN_POINT('',(-0.012,-0.0444,0.5));
#330=CARTESIAN_POINT('',(-0.0135,-0.0444,0.5));
#331=CARTESIAN_POINT('',(0.012,-0.0204,0.5));
#332=CARTESIAN_POINT('',(0.0105,-0.0204,0.5));
#333=CARTESIAN_POINT('',(0.012,-0.0204,0.497998));
#334=CARTESIAN_POINT('',(-2.77555756156289E-17,-0.0324,0.497998));
#335=CARTESIAN_POINT('',(-0.012,-0.0204,0.497998));
#336=CARTESIAN_POINT('',(0.012,-0.0444,0.497998));
#337=CARTESIAN_POINT('',(-3.12250225675825E-17,-0.0474,0.497998));
#338=CARTESIAN_POINT('',(0.015,-0.0474,0.497998));
#339=CARTESIAN_POINT('',(-0.015,-0.0474,0.497998));
#340=CARTESIAN_POINT('',(-0.012,-0.0444,0.497998));
#341=CARTESIAN_POINT('',(0.015,-0.0324,0.497998));
#342=CARTESIAN_POINT('',(0.015,-0.0174,0.497998));
#343=CARTESIAN_POINT('',(-2.60208521396521E-17,-0.0174,0.497998));
#344=CARTESIAN_POINT('',(-0.015,-0.0174,0.497998));
#345=CARTESIAN_POINT('',(-0.015,-0.0324,0.497998));
#346=MECHANICAL_DESIGN_GEOMETRIC_PRESENTATION_REPRESENTATION('',(#205),
#347);
#347=(
GEOMETRIC_REPRESENTATION_CONTEXT(3)
GLOBAL_UNCERTAINTY_ASSIGNED_CONTEXT((#348))
GLOBAL_UNIT_ASSIGNED_CONTEXT((#351,#350,#349))
REPRESENTATION_CONTEXT('down cover','TOP_LEVEL_ASSEMBLY_PART')
);
#348=UNCERTAINTY_MEASURE_WITH_UNIT(LENGTH_MEASURE(1.E-8),#351,
'DISTANCE_ACCURACY_VALUE','Maximum Tolerance applied to model');
#349=(
NAMED_UNIT(*)
SI_UNIT($,.STERADIAN.)
SOLID_ANGLE_UNIT()
);
#350=(
NAMED_UNIT(*)
PLANE_ANGLE_UNIT()
SI_UNIT($,.RADIAN.)
);
#351=(
LENGTH_UNIT()
NAMED_UNIT(*)
SI_UNIT($,.METRE.)
);
#352=PRODUCT_DEFINITION_SHAPE('','',#353);
#353=PRODUCT_DEFINITION('','',#355,#354);
#354=PRODUCT_DEFINITION_CONTEXT('',#361,'design');
#355=PRODUCT_DEFINITION_FORMATION_WITH_SPECIFIED_SOURCE('','',#357,
 .NOT_KNOWN.);
#356=PRODUCT_RELATED_PRODUCT_CATEGORY('','',(#357));
#357=PRODUCT('down cover','down cover','down cover',(#359));
#358=PRODUCT_CATEGORY('','');
#359=PRODUCT_CONTEXT('',#361,'mechanical');
#360=APPLICATION_PROTOCOL_DEFINITION('international standard',
'ap242_managed_model_based_3d_engineering',2011,#361);
#361=APPLICATION_CONTEXT('managed model based 3d engineering');
ENDSEC;
END-ISO-10303-21;
